ISO-10303-21;
HEADER;
FILE_DESCRIPTION (( 'STEP AP214' ),
    '1' );
FILE_NAME ('AE-1000-4903 Silicon Heater Solder Station Clamp.STEP',
    '2019-01-12T01:24:40',
    ( '' ),
    ( '' ),
    'SwSTEP 2.0',
    'SolidWorks 2016',
    '' );
FILE_SCHEMA (( 'AUTOMOTIVE_DESIGN' ));
ENDSEC;

DATA;
#1 = CARTESIAN_POINT ( 'NONE',  ( 50.00000000000004300, 1.590000000000000100, -8.250000000000007100 ) ) ;
#2 = PRODUCT_DEFINITION_SHAPE ( 'NONE', 'NONE',  #40 ) ;
#3 = DIRECTION ( 'NONE',  ( 0.0000000000000000000, 1.000000000000000000, 0.0000000000000000000 ) ) ;
#4 = ORIENTED_EDGE ( 'NONE', *, *, #140, .F. ) ;
#5 = EDGE_CURVE ( 'NONE', #116, #214, #347, .T. ) ;
#6 = PRESENTATION_STYLE_ASSIGNMENT (( #102 ) ) ;
#7 = FACE_BOUND ( 'NONE', #252, .T. ) ;
#8 = UNCERTAINTY_MEASURE_WITH_UNIT (LENGTH_MEASURE( 1.000000000000000100E-005 ), #26, 'distance_accuracy_value', 'NONE');
#9 = EDGE_LOOP ( 'NONE', ( #328, #290, #247, #348 ) ) ;
#10 = EDGE_CURVE ( 'NONE', #326, #97, #82, .T. ) ;
#11 = FACE_OUTER_BOUND ( 'NONE', #246, .T. ) ;
#12 = CARTESIAN_POINT ( 'NONE',  ( 0.0000000000000000000, 1.590000000000000100, 0.0000000000000000000 ) ) ;
#13 = FACE_OUTER_BOUND ( 'NONE', #301, .T. ) ;
#14 = AXIS2_PLACEMENT_3D ( 'NONE', #308, #343, #307 ) ;
#15 = EDGE_CURVE ( 'NONE', #214, #285, #242, .T. ) ;
#16 = EDGE_LOOP ( 'NONE', ( #49, #305, #63, #273 ) ) ;
#17 = CARTESIAN_POINT ( 'NONE',  ( 10.50000000000000000, 1.590000000000000100, -5.625000000000002700 ) ) ;
#18 = PLANE ( 'NONE',  #226 ) ;
#19 = DIRECTION ( 'NONE',  ( 1.000000000000000000, 0.0000000000000000000, 0.0000000000000000000 ) ) ;
#20 = CARTESIAN_POINT ( 'NONE',  ( 39.50000000000000000, 1.590000000000000100, -4.125000000000003600 ) ) ;
#21 = ORIENTED_EDGE ( 'NONE', *, *, #302, .T. ) ;
#22 = DIRECTION ( 'NONE',  ( 0.0000000000000000000, 0.0000000000000000000, -1.000000000000000000 ) ) ;
#23 = CIRCLE ( 'NONE', #59, 1.499999999999998700 ) ;
#24 = DIRECTION ( 'NONE',  ( 0.0000000000000000000, 0.0000000000000000000, -1.000000000000000000 ) ) ;
#25 = AXIS2_PLACEMENT_3D ( 'NONE', #120, #149, #336 ) ;
#26 =( LENGTH_UNIT ( ) NAMED_UNIT ( * ) SI_UNIT ( .MILLI., .METRE. ) );
#27 = STYLED_ITEM ( 'NONE', ( #48 ), #52 ) ;
#28 = CARTESIAN_POINT ( 'NONE',  ( 39.50000000000000000, 0.0000000000000000000, -4.125000000000003600 ) ) ;
#29 = LINE ( 'NONE', #38, #53 ) ;
#30 = VERTEX_POINT ( 'NONE', #12 ) ;
#31 = ORIENTED_EDGE ( 'NONE', *, *, #223, .T. ) ;
#32 = EDGE_CURVE ( 'NONE', #291, #193, #192, .T. ) ;
#33 = EDGE_LOOP ( 'NONE', ( #133, #115, #344, #209 ) ) ;
#34 = PRODUCT ( 'AE-1000-4903 Silicon Heater Solder Station Clamp', 'AE-1000-4903 Silicon Heater Solder Station Clamp', '', ( #169 ) ) ;
#35 = LINE ( 'NONE', #1, #164 ) ;
#36 =( NAMED_UNIT ( * ) PLANE_ANGLE_UNIT ( ) SI_UNIT ( $, .RADIAN. ) );
#37 = ORIENTED_EDGE ( 'NONE', *, *, #241, .T. ) ;
#38 = CARTESIAN_POINT ( 'NONE',  ( 39.50000000000000000, 1.590000000000000100, -2.624999999999999600 ) ) ;
#39 = CIRCLE ( 'NONE', #260, 1.499999999999998700 ) ;
#40 = PRODUCT_DEFINITION ( 'UNKNOWN', '', #143, #183 ) ;
#41 = DIRECTION ( 'NONE',  ( 0.0000000000000000000, 0.0000000000000000000, 1.000000000000000000 ) ) ;
#42 = EDGE_LOOP ( 'NONE', ( #132, #91 ) ) ;
#43 = FACE_OUTER_BOUND ( 'NONE', #187, .T. ) ;
#44 =( GEOMETRIC_REPRESENTATION_CONTEXT ( 3 ) GLOBAL_UNCERTAINTY_ASSIGNED_CONTEXT ( ( #8 ) ) GLOBAL_UNIT_ASSIGNED_CONTEXT ( ( #26, #47, #267 ) ) REPRESENTATION_CONTEXT ( 'NONE', 'WORKASPACE' ) );
#45 = VECTOR ( 'NONE', #245, 1000.000000000000000 ) ;
#46 = SURFACE_SIDE_STYLE ('',( #83 ) ) ;
#47 =( NAMED_UNIT ( * ) PLANE_ANGLE_UNIT ( ) SI_UNIT ( $, .RADIAN. ) );
#48 = PRESENTATION_STYLE_ASSIGNMENT (( #280 ) ) ;
#49 = ORIENTED_EDGE ( 'NONE', *, *, #262, .F. ) ;
#50 = FACE_BOUND ( 'NONE', #257, .T. ) ;
#51 = VERTEX_POINT ( 'NONE', #60 ) ;
#52 = MANIFOLD_SOLID_BREP ( 'Boss-Extrude1', #122 ) ;
#53 = VECTOR ( 'NONE', #185, 1000.000000000000000 ) ;
#54 = ORIENTED_EDGE ( 'NONE', *, *, #317, .T. ) ;
#55 = VECTOR ( 'NONE', #266, 1000.000000000000000 ) ;
#56 =( LENGTH_UNIT ( ) NAMED_UNIT ( * ) SI_UNIT ( .MILLI., .METRE. ) );
#57 = ORIENTED_EDGE ( 'NONE', *, *, #197, .T. ) ;
#58 = LINE ( 'NONE', #188, #135 ) ;
#59 = AXIS2_PLACEMENT_3D ( 'NONE', #65, #283, #41 ) ;
#60 = CARTESIAN_POINT ( 'NONE',  ( 39.50000000000000000, 0.0000000000000000000, -2.624999999999999600 ) ) ;
#61 = CARTESIAN_POINT ( 'NONE',  ( 10.50000000000000000, 0.0000000000000000000, -2.625000000000004900 ) ) ;
#62 = DIRECTION ( 'NONE',  ( 0.0000000000000000000, 0.0000000000000000000, 1.000000000000000000 ) ) ;
#63 = ORIENTED_EDGE ( 'NONE', *, *, #15, .F. ) ;
#64 = VERTEX_POINT ( 'NONE', #342 ) ;
#65 = CARTESIAN_POINT ( 'NONE',  ( 10.50000000000000000, 1.590000000000000100, -4.125000000000003600 ) ) ;
#66 = DIRECTION ( 'NONE',  ( -0.0000000000000000000, -1.000000000000000000, -0.0000000000000000000 ) ) ;
#67 = AXIS2_PLACEMENT_3D ( 'NONE', #204, #184, #309 ) ;
#68 = ORIENTED_EDGE ( 'NONE', *, *, #228, .F. ) ;
#69 = LINE ( 'NONE', #340, #181 ) ;
#70 = CARTESIAN_POINT ( 'NONE',  ( 39.50000000000000000, 1.590000000000000100, -2.624999999999999600 ) ) ;
#71 = ADVANCED_FACE ( 'NONE', ( #13 ), #117, .F. ) ;
#72 = DIRECTION ( 'NONE',  ( -0.0000000000000000000, -1.000000000000000000, -0.0000000000000000000 ) ) ;
#73 = ORIENTED_EDGE ( 'NONE', *, *, #345, .T. ) ;
#74 = CARTESIAN_POINT ( 'NONE',  ( 10.50000000000000000, 1.590000000000000100, -4.125000000000003600 ) ) ;
#75 = ADVANCED_FACE ( 'NONE', ( #125 ), #18, .F. ) ;
#76 = APPLICATION_CONTEXT ( 'automotive_design' ) ;
#77 = ADVANCED_FACE ( 'NONE', ( #299 ), #177, .F. ) ;
#78 = CARTESIAN_POINT ( 'NONE',  ( 10.50000000000000000, 1.590000000000000100, -2.625000000000004900 ) ) ;
#79 = SHAPE_DEFINITION_REPRESENTATION ( #2, #298 ) ;
#80 = ORIENTED_EDGE ( 'NONE', *, *, #113, .T. ) ;
#81 = CYLINDRICAL_SURFACE ( 'NONE', #194, 1.500000000000004000 ) ;
#82 = LINE ( 'NONE', #112, #45 ) ;
#83 = SURFACE_STYLE_FILL_AREA ( #138 ) ;
#84 = LINE ( 'NONE', #124, #95 ) ;
#85 = ORIENTED_EDGE ( 'NONE', *, *, #119, .T. ) ;
#86 = CARTESIAN_POINT ( 'NONE',  ( 0.0000000000000000000, 1.590000000000000100, -8.250000000000007100 ) ) ;
#87 = DIRECTION ( 'NONE',  ( 0.0000000000000000000, 0.0000000000000000000, -1.000000000000000000 ) ) ;
#88 = MECHANICAL_DESIGN_GEOMETRIC_PRESENTATION_REPRESENTATION (  '', ( #174 ), #330 ) ;
#89 = CARTESIAN_POINT ( 'NONE',  ( 39.50000000000000000, 0.0000000000000000000, -5.625000000000008000 ) ) ;
#90 = VECTOR ( 'NONE', #278, 1000.000000000000000 ) ;
#91 = ORIENTED_EDGE ( 'NONE', *, *, #155, .F. ) ;
#92 = DIRECTION ( 'NONE',  ( 0.0000000000000000000, 0.0000000000000000000, -1.000000000000000000 ) ) ;
#93 = EDGE_CURVE ( 'NONE', #30, #116, #84, .T. ) ;
#94 = COLOUR_RGB ( '',0.7921568627450980000, 0.8196078431372548800, 0.9333333333333333500 ) ;
#95 = VECTOR ( 'NONE', #207, 1000.000000000000000 ) ;
#96 = CARTESIAN_POINT ( 'NONE',  ( 50.00000000000004300, 0.0000000000000000000, 0.0000000000000000000 ) ) ;
#97 = VERTEX_POINT ( 'NONE', #89 ) ;
#98 = DIRECTION ( 'NONE',  ( -0.0000000000000000000, -1.000000000000000000, -0.0000000000000000000 ) ) ;
#99 = ORIENTED_EDGE ( 'NONE', *, *, #338, .F. ) ;
#100 = CARTESIAN_POINT ( 'NONE',  ( 39.50000000000000000, 1.590000000000000100, -4.125000000000003600 ) ) ;
#101 = EDGE_CURVE ( 'NONE', #222, #51, #29, .T. ) ;
#102 = SURFACE_STYLE_USAGE ( .BOTH. , #46 ) ;
#103 = SURFACE_STYLE_FILL_AREA ( #248 ) ;
#104 = DIRECTION ( 'NONE',  ( -1.000000000000000000, 0.0000000000000000000, 0.0000000000000000000 ) ) ;
#105 = ORIENTED_EDGE ( 'NONE', *, *, #338, .T. ) ;
#106 = DIRECTION ( 'NONE',  ( -0.0000000000000000000, -0.0000000000000000000, 1.000000000000000000 ) ) ;
#107 = CIRCLE ( 'NONE', #157, 1.499999999999998700 ) ;
#108 = CIRCLE ( 'NONE', #211, 1.500000000000004000 ) ;
#109 = AXIS2_PLACEMENT_3D ( 'NONE', #316, #314, #160 ) ;
#110 = ORIENTED_EDGE ( 'NONE', *, *, #10, .T. ) ;
#111 = VECTOR ( 'NONE', #22, 1000.000000000000000 ) ;
#112 = CARTESIAN_POINT ( 'NONE',  ( 39.50000000000000000, 1.590000000000000100, -5.625000000000008000 ) ) ;
#113 = EDGE_CURVE ( 'NONE', #145, #173, #23, .T. ) ;
#114 = DIRECTION ( 'NONE',  ( -1.000000000000000000, -0.0000000000000000000, -0.0000000000000000000 ) ) ;
#115 = ORIENTED_EDGE ( 'NONE', *, *, #101, .T. ) ;
#116 = VERTEX_POINT ( 'NONE', #150 ) ;
#117 = PLANE ( 'NONE',  #67 ) ;
#118 = CARTESIAN_POINT ( 'NONE',  ( 39.50000000000000000, 1.590000000000000100, -4.125000000000003600 ) ) ;
#119 = EDGE_CURVE ( 'NONE', #145, #64, #249, .T. ) ;
#120 = CARTESIAN_POINT ( 'NONE',  ( 0.0000000000000000000, 1.590000000000000100, 0.0000000000000000000 ) ) ;
#121 = COLOUR_RGB ( '',0.7921568627450980000, 0.8196078431372548800, 0.9333333333333333500 ) ;
#122 = CLOSED_SHELL ( 'NONE', ( #77, #315, #168, #269, #189, #71, #293, #75, #131, #320 ) ) ;
#123 = DIRECTION ( 'NONE',  ( 0.0000000000000000000, 0.0000000000000000000, 1.000000000000000000 ) ) ;
#124 = CARTESIAN_POINT ( 'NONE',  ( 0.0000000000000000000, 1.590000000000000100, 0.0000000000000000000 ) ) ;
#125 = FACE_OUTER_BOUND ( 'NONE', #203, .T. ) ;
#126 = PLANE ( 'NONE',  #14 ) ;
#127 = ORIENTED_EDGE ( 'NONE', *, *, #163, .F. ) ;
#128 = VECTOR ( 'NONE', #98, 1000.000000000000000 ) ;
#129 =( NAMED_UNIT ( * ) PLANE_ANGLE_UNIT ( ) SI_UNIT ( $, .RADIAN. ) );
#130 = DIRECTION ( 'NONE',  ( 0.0000000000000000000, 1.000000000000000000, 0.0000000000000000000 ) ) ;
#131 = ADVANCED_FACE ( 'NONE', ( #279 ), #268, .F. ) ;
#132 = ORIENTED_EDGE ( 'NONE', *, *, #215, .F. ) ;
#133 = ORIENTED_EDGE ( 'NONE', *, *, #215, .T. ) ;
#134 = DIRECTION ( 'NONE',  ( -0.0000000000000000000, -1.000000000000000000, -0.0000000000000000000 ) ) ;
#135 = VECTOR ( 'NONE', #264, 1000.000000000000000 ) ;
#136 = AXIS2_PLACEMENT_3D ( 'NONE', #258, #166, #191 ) ;
#137 = CIRCLE ( 'NONE', #253, 1.499999999999998700 ) ;
#138 = FILL_AREA_STYLE ('',( #295 ) ) ;
#139 = DIRECTION ( 'NONE',  ( 0.0000000000000000000, 0.0000000000000000000, 1.000000000000000000 ) ) ;
#140 = EDGE_CURVE ( 'NONE', #193, #333, #69, .T. ) ;
#141 = VECTOR ( 'NONE', #72, 1000.000000000000000 ) ;
#142 = LINE ( 'NONE', #190, #341 ) ;
#143 = PRODUCT_DEFINITION_FORMATION_WITH_SPECIFIED_SOURCE ( 'ANY', '', #34, .NOT_KNOWN. ) ;
#144 = EDGE_CURVE ( 'NONE', #30, #271, #327, .T. ) ;
#145 = VERTEX_POINT ( 'NONE', #17 ) ;
#146 = VERTEX_POINT ( 'NONE', #61 ) ;
#147 = DIRECTION ( 'NONE',  ( 1.000000000000000000, 0.0000000000000000000, 0.0000000000000000000 ) ) ;
#148 = CYLINDRICAL_SURFACE ( 'NONE', #151, 1.499999999999998700 ) ;
#149 = DIRECTION ( 'NONE',  ( 1.000000000000000000, -0.0000000000000000000, 0.0000000000000000000 ) ) ;
#150 = CARTESIAN_POINT ( 'NONE',  ( 0.0000000000000000000, 0.0000000000000000000, 0.0000000000000000000 ) ) ;
#151 = AXIS2_PLACEMENT_3D ( 'NONE', #74, #134, #24 ) ;
#152 = CARTESIAN_POINT ( 'NONE',  ( 0.0000000000000000000, 1.590000000000000100, 0.0000000000000000000 ) ) ;
#153 = ORIENTED_EDGE ( 'NONE', *, *, #302, .F. ) ;
#154 = CARTESIAN_POINT ( 'NONE',  ( 0.0000000000000000000, 1.590000000000000100, -8.250000000000007100 ) ) ;
#155 = EDGE_CURVE ( 'NONE', #222, #326, #156, .T. ) ;
#156 = CIRCLE ( 'NONE', #312, 1.500000000000004000 ) ;
#157 = AXIS2_PLACEMENT_3D ( 'NONE', #251, #335, #62 ) ;
#158 = CARTESIAN_POINT ( 'NONE',  ( 50.00000000000004300, 0.0000000000000000000, -8.250000000000007100 ) ) ;
#159 = DIRECTION ( 'NONE',  ( 0.0000000000000000000, 1.000000000000000000, 0.0000000000000000000 ) ) ;
#160 = DIRECTION ( 'NONE',  ( 1.000000000000000000, 0.0000000000000000000, 0.0000000000000000000 ) ) ;
#161 = ORIENTED_EDGE ( 'NONE', *, *, #239, .T. ) ;
#162 = CARTESIAN_POINT ( 'NONE',  ( 10.50000000000000000, 1.590000000000000100, -4.125000000000003600 ) ) ;
#163 = EDGE_CURVE ( 'NONE', #146, #64, #107, .T. ) ;
#164 = VECTOR ( 'NONE', #318, 1000.000000000000000 ) ;
#165 = DIRECTION ( 'NONE',  ( -0.0000000000000000000, -1.000000000000000000, -0.0000000000000000000 ) ) ;
#166 = DIRECTION ( 'NONE',  ( 0.0000000000000000000, 1.000000000000000000, 0.0000000000000000000 ) ) ;
#167 = CARTESIAN_POINT ( 'NONE',  ( 10.50000000000000000, 0.0000000000000000000, -4.125000000000003600 ) ) ;
#168 = ADVANCED_FACE ( 'NONE', ( #224, #7, #334 ), #126, .F. ) ;
#169 = PRODUCT_CONTEXT ( 'NONE', #76, 'mechanical' ) ;
#170 = CARTESIAN_POINT ( 'NONE',  ( 0.0000000000000000000, 0.0000000000000000000, 0.0000000000000000000 ) ) ;
#171 = AXIS2_PLACEMENT_3D ( 'NONE', #118, #208, #87 ) ;
#172 = ORIENTED_EDGE ( 'NONE', *, *, #201, .T. ) ;
#173 = VERTEX_POINT ( 'NONE', #281 ) ;
#174 = STYLED_ITEM ( 'NONE', ( #6 ), #298 ) ;
#175 = AXIS2_PLACEMENT_3D ( 'NONE', #28, #3, #297 ) ;
#176 = EDGE_LOOP ( 'NONE', ( #198, #306, #216, #57 ) ) ;
#177 = CYLINDRICAL_SURFACE ( 'NONE', #171, 1.500000000000004000 ) ;
#178 = CARTESIAN_POINT ( 'NONE',  ( 50.00000000000004300, 0.0000000000000000000, 0.0000000000000000000 ) ) ;
#179 = ORIENTED_EDGE ( 'NONE', *, *, #144, .T. ) ;
#180 = CARTESIAN_POINT ( 'NONE',  ( 0.0000000000000000000, 0.0000000000000000000, 0.0000000000000000000 ) ) ;
#181 = VECTOR ( 'NONE', #230, 1000.000000000000000 ) ;
#182 = DIRECTION ( 'NONE',  ( 1.000000000000000000, 0.0000000000000000000, -0.0000000000000000000 ) ) ;
#183 = PRODUCT_DEFINITION_CONTEXT ( 'detailed design', #234, 'design' ) ;
#184 = DIRECTION ( 'NONE',  ( 0.0000000000000000000, 0.0000000000000000000, -1.000000000000000000 ) ) ;
#185 = DIRECTION ( 'NONE',  ( -0.0000000000000000000, -1.000000000000000000, -0.0000000000000000000 ) ) ;
#186 = EDGE_LOOP ( 'NONE', ( #73, #179, #31, #232 ) ) ;
#187 = EDGE_LOOP ( 'NONE', ( #80, #105, #68, #265 ) ) ;
#188 = CARTESIAN_POINT ( 'NONE',  ( 0.0000000000000000000, 1.590000000000000100, 0.0000000000000000000 ) ) ;
#189 = ADVANCED_FACE ( 'NONE', ( #259 ), #282, .F. ) ;
#190 = CARTESIAN_POINT ( 'NONE',  ( 0.0000000000000000000, 0.0000000000000000000, 0.0000000000000000000 ) ) ;
#191 = DIRECTION ( 'NONE',  ( 0.0000000000000000000, 0.0000000000000000000, 1.000000000000000000 ) ) ;
#192 = LINE ( 'NONE', #243, #202 ) ;
#193 = VERTEX_POINT ( 'NONE', #86 ) ;
#194 = AXIS2_PLACEMENT_3D ( 'NONE', #100, #165, #349 ) ;
#195 = APPLICATION_PROTOCOL_DEFINITION ( 'draft international standard', 'automotive_design', 1998, #234 ) ;
#196 = CARTESIAN_POINT ( 'NONE',  ( 50.00000000000004300, 1.590000000000000100, -8.250000000000007100 ) ) ;
#197 = EDGE_CURVE ( 'NONE', #271, #214, #206, .T. ) ;
#198 = ORIENTED_EDGE ( 'NONE', *, *, #15, .T. ) ;
#199 = ORIENTED_EDGE ( 'NONE', *, *, #163, .T. ) ;
#200 = VECTOR ( 'NONE', #19, 1000.000000000000000 ) ;
#201 = EDGE_CURVE ( 'NONE', #173, #145, #39, .T. ) ;
#202 = VECTOR ( 'NONE', #114, 1000.000000000000000 ) ;
#203 = EDGE_LOOP ( 'NONE', ( #37, #4, #276, #54 ) ) ;
#204 = CARTESIAN_POINT ( 'NONE',  ( 0.0000000000000000000, 1.590000000000000100, 0.0000000000000000000 ) ) ;
#205 = EDGE_LOOP ( 'NONE', ( #161, #21 ) ) ;
#206 = LINE ( 'NONE', #210, #128 ) ;
#207 = DIRECTION ( 'NONE',  ( -0.0000000000000000000, -1.000000000000000000, -0.0000000000000000000 ) ) ;
#208 = DIRECTION ( 'NONE',  ( -0.0000000000000000000, -1.000000000000000000, -0.0000000000000000000 ) ) ;
#209 = ORIENTED_EDGE ( 'NONE', *, *, #10, .F. ) ;
#210 = CARTESIAN_POINT ( 'NONE',  ( 50.00000000000004300, 1.590000000000000100, 0.0000000000000000000 ) ) ;
#211 = AXIS2_PLACEMENT_3D ( 'NONE', #287, #159, #346 ) ;
#212 = ORIENTED_EDGE ( 'NONE', *, *, #113, .F. ) ;
#213 = APPLICATION_PROTOCOL_DEFINITION ( 'draft international standard', 'automotive_design', 1998, #76 ) ;
#214 = VERTEX_POINT ( 'NONE', #96 ) ;
#215 = EDGE_CURVE ( 'NONE', #326, #222, #108, .T. ) ;
#216 = ORIENTED_EDGE ( 'NONE', *, *, #223, .F. ) ;
#217 = CARTESIAN_POINT ( 'NONE',  ( 0.0000000000000000000, 0.0000000000000000000, -8.250000000000007100 ) ) ;
#218 = ORIENTED_EDGE ( 'NONE', *, *, #93, .T. ) ;
#219 = ORIENTED_EDGE ( 'NONE', *, *, #101, .F. ) ;
#220 = ORIENTED_EDGE ( 'NONE', *, *, #228, .T. ) ;
#221 = PRESENTATION_LAYER_ASSIGNMENT (  '', '', ( #174 ) ) ;
#222 = VERTEX_POINT ( 'NONE', #70 ) ;
#223 = EDGE_CURVE ( 'NONE', #271, #291, #274, .T. ) ;
#224 = FACE_OUTER_BOUND ( 'NONE', #186, .T. ) ;
#225 =( NAMED_UNIT ( * ) SI_UNIT ( $, .STERADIAN. ) SOLID_ANGLE_UNIT ( ) );
#226 = AXIS2_PLACEMENT_3D ( 'NONE', #154, #123, #182 ) ;
#227 = DIRECTION ( 'NONE',  ( 0.0000000000000000000, 0.0000000000000000000, 1.000000000000000000 ) ) ;
#228 = EDGE_CURVE ( 'NONE', #64, #146, #137, .T. ) ;
#229 = CARTESIAN_POINT ( 'NONE',  ( 10.50000000000000000, 1.590000000000000100, -4.125000000000003600 ) ) ;
#230 = DIRECTION ( 'NONE',  ( -0.0000000000000000000, -1.000000000000000000, -0.0000000000000000000 ) ) ;
#231 = UNCERTAINTY_MEASURE_WITH_UNIT (LENGTH_MEASURE( 1.000000000000000100E-005 ), #56, 'distance_accuracy_value', 'NONE');
#232 = ORIENTED_EDGE ( 'NONE', *, *, #32, .T. ) ;
#233 = CARTESIAN_POINT ( 'NONE',  ( 39.50000000000000000, 1.590000000000000100, -5.625000000000008000 ) ) ;
#234 = APPLICATION_CONTEXT ( 'automotive_design' ) ;
#235 = PLANE ( 'NONE',  #303 ) ;
#236 = AXIS2_PLACEMENT_3D ( 'NONE', #229, #255, #92 ) ;
#237 = ORIENTED_EDGE ( 'NONE', *, *, #5, .T. ) ;
#238 = DIRECTION ( 'NONE',  ( 0.0000000000000000000, 1.000000000000000000, 0.0000000000000000000 ) ) ;
#239 = EDGE_CURVE ( 'NONE', #97, #51, #350, .T. ) ;
#240 = ORIENTED_EDGE ( 'NONE', *, *, #155, .T. ) ;
#241 = EDGE_CURVE ( 'NONE', #285, #333, #313, .T. ) ;
#242 = LINE ( 'NONE', #178, #90 ) ;
#243 = CARTESIAN_POINT ( 'NONE',  ( 0.0000000000000000000, 1.590000000000000100, -8.250000000000007100 ) ) ;
#244 = CIRCLE ( 'NONE', #136, 1.500000000000004000 ) ;
#245 = DIRECTION ( 'NONE',  ( -0.0000000000000000000, -1.000000000000000000, -0.0000000000000000000 ) ) ;
#246 = EDGE_LOOP ( 'NONE', ( #219, #240, #110, #153 ) ) ;
#247 = ORIENTED_EDGE ( 'NONE', *, *, #345, .F. ) ;
#248 = FILL_AREA_STYLE ('',( #331 ) ) ;
#249 = LINE ( 'NONE', #284, #324 ) ;
#250 = DIRECTION ( 'NONE',  ( 0.0000000000000000000, 1.000000000000000000, 0.0000000000000000000 ) ) ;
#251 = CARTESIAN_POINT ( 'NONE',  ( 10.50000000000000000, 0.0000000000000000000, -4.125000000000003600 ) ) ;
#252 = EDGE_LOOP ( 'NONE', ( #212, #339 ) ) ;
#253 = AXIS2_PLACEMENT_3D ( 'NONE', #167, #238, #139 ) ;
#254 = FACE_BOUND ( 'NONE', #205, .T. ) ;
#255 = DIRECTION ( 'NONE',  ( -0.0000000000000000000, -1.000000000000000000, -0.0000000000000000000 ) ) ;
#256 = PRESENTATION_LAYER_ASSIGNMENT (  '', '', ( #27 ) ) ;
#257 = EDGE_LOOP ( 'NONE', ( #220, #199 ) ) ;
#258 = CARTESIAN_POINT ( 'NONE',  ( 39.50000000000000000, 0.0000000000000000000, -4.125000000000003600 ) ) ;
#259 = FACE_OUTER_BOUND ( 'NONE', #9, .T. ) ;
#260 = AXIS2_PLACEMENT_3D ( 'NONE', #162, #130, #311 ) ;
#261 = DIRECTION ( 'NONE',  ( 0.0000000000000000000, 0.0000000000000000000, 1.000000000000000000 ) ) ;
#262 = EDGE_CURVE ( 'NONE', #333, #116, #142, .T. ) ;
#263 = EDGE_LOOP ( 'NONE', ( #99, #172, #85, #127 ) ) ;
#264 = DIRECTION ( 'NONE',  ( -0.0000000000000000000, -0.0000000000000000000, 1.000000000000000000 ) ) ;
#265 = ORIENTED_EDGE ( 'NONE', *, *, #119, .F. ) ;
#266 = DIRECTION ( 'NONE',  ( -1.000000000000000000, -0.0000000000000000000, -0.0000000000000000000 ) ) ;
#267 =( NAMED_UNIT ( * ) SI_UNIT ( $, .STERADIAN. ) SOLID_ANGLE_UNIT ( ) );
#268 = CYLINDRICAL_SURFACE ( 'NONE', #236, 1.499999999999998700 ) ;
#269 = ADVANCED_FACE ( 'NONE', ( #50, #329, #254 ), #323, .T. ) ;
#270 = CARTESIAN_POINT ( 'NONE',  ( 50.00000000000004300, 1.590000000000000100, 0.0000000000000000000 ) ) ;
#271 = VERTEX_POINT ( 'NONE', #270 ) ;
#272 = VECTOR ( 'NONE', #147, 1000.000000000000000 ) ;
#273 = ORIENTED_EDGE ( 'NONE', *, *, #5, .F. ) ;
#274 = LINE ( 'NONE', #292, #111 ) ;
#275 = PRODUCT_RELATED_PRODUCT_CATEGORY ( 'part', '', ( #34 ) ) ;
#276 = ORIENTED_EDGE ( 'NONE', *, *, #32, .F. ) ;
#277 = MECHANICAL_DESIGN_GEOMETRIC_PRESENTATION_REPRESENTATION (  '', ( #27 ), #300 ) ;
#278 = DIRECTION ( 'NONE',  ( 0.0000000000000000000, 0.0000000000000000000, -1.000000000000000000 ) ) ;
#279 = FACE_OUTER_BOUND ( 'NONE', #263, .T. ) ;
#280 = SURFACE_STYLE_USAGE ( .BOTH. , #304 ) ;
#281 = CARTESIAN_POINT ( 'NONE',  ( 10.50000000000000000, 1.590000000000000100, -2.625000000000004900 ) ) ;
#282 = PLANE ( 'NONE',  #25 ) ;
#283 = DIRECTION ( 'NONE',  ( 0.0000000000000000000, 1.000000000000000000, 0.0000000000000000000 ) ) ;
#284 = CARTESIAN_POINT ( 'NONE',  ( 10.50000000000000000, 1.590000000000000100, -5.625000000000002700 ) ) ;
#285 = VERTEX_POINT ( 'NONE', #158 ) ;
#286 = AXIS2_PLACEMENT_3D ( 'NONE', #170, #296, #319 ) ;
#287 = CARTESIAN_POINT ( 'NONE',  ( 39.50000000000000000, 1.590000000000000100, -4.125000000000003600 ) ) ;
#288 = CARTESIAN_POINT ( 'NONE',  ( 50.00000000000004300, 1.590000000000000100, 0.0000000000000000000 ) ) ;
#289 =( LENGTH_UNIT ( ) NAMED_UNIT ( * ) SI_UNIT ( .MILLI., .METRE. ) );
#290 = ORIENTED_EDGE ( 'NONE', *, *, #93, .F. ) ;
#291 = VERTEX_POINT ( 'NONE', #196 ) ;
#292 = CARTESIAN_POINT ( 'NONE',  ( 50.00000000000004300, 1.590000000000000100, 0.0000000000000000000 ) ) ;
#293 = ADVANCED_FACE ( 'NONE', ( #310 ), #235, .F. ) ;
#294 = LINE ( 'NONE', #78, #141 ) ;
#295 = FILL_AREA_STYLE_COLOUR ( '', #94 ) ;
#296 = DIRECTION ( 'NONE',  ( 0.0000000000000000000, -1.000000000000000000, 0.0000000000000000000 ) ) ;
#297 = DIRECTION ( 'NONE',  ( 0.0000000000000000000, 0.0000000000000000000, 1.000000000000000000 ) ) ;
#298 = ADVANCED_BREP_SHAPE_REPRESENTATION ( 'AE-1000-4903 Silicon Heater Solder Station Clamp', ( #52, #109 ), #44 ) ;
#299 = FACE_OUTER_BOUND ( 'NONE', #33, .T. ) ;
#300 =( GEOMETRIC_REPRESENTATION_CONTEXT ( 3 ) GLOBAL_UNCERTAINTY_ASSIGNED_CONTEXT ( ( #231 ) ) GLOBAL_UNIT_ASSIGNED_CONTEXT ( ( #56, #36, #225 ) ) REPRESENTATION_CONTEXT ( 'NONE', 'WORKASPACE' ) );
#301 = EDGE_LOOP ( 'NONE', ( #237, #321, #337, #218 ) ) ;
#302 = EDGE_CURVE ( 'NONE', #51, #97, #244, .T. ) ;
#303 = AXIS2_PLACEMENT_3D ( 'NONE', #288, #104, #261 ) ;
#304 = SURFACE_SIDE_STYLE ('',( #103 ) ) ;
#305 = ORIENTED_EDGE ( 'NONE', *, *, #241, .F. ) ;
#306 = ORIENTED_EDGE ( 'NONE', *, *, #317, .F. ) ;
#307 = DIRECTION ( 'NONE',  ( 0.0000000000000000000, -0.0000000000000000000, -1.000000000000000000 ) ) ;
#308 = CARTESIAN_POINT ( 'NONE',  ( 0.0000000000000000000, 1.590000000000000100, 0.0000000000000000000 ) ) ;
#309 = DIRECTION ( 'NONE',  ( -1.000000000000000000, 0.0000000000000000000, -0.0000000000000000000 ) ) ;
#310 = FACE_OUTER_BOUND ( 'NONE', #176, .T. ) ;
#311 = DIRECTION ( 'NONE',  ( 0.0000000000000000000, 0.0000000000000000000, 1.000000000000000000 ) ) ;
#312 = AXIS2_PLACEMENT_3D ( 'NONE', #20, #250, #227 ) ;
#313 = LINE ( 'NONE', #325, #55 ) ;
#314 = DIRECTION ( 'NONE',  ( 0.0000000000000000000, 0.0000000000000000000, 1.000000000000000000 ) ) ;
#315 = ADVANCED_FACE ( 'NONE', ( #43 ), #148, .F. ) ;
#316 = CARTESIAN_POINT ( 'NONE',  ( 0.0000000000000000000, 0.0000000000000000000, 0.0000000000000000000 ) ) ;
#317 = EDGE_CURVE ( 'NONE', #291, #285, #35, .T. ) ;
#318 = DIRECTION ( 'NONE',  ( -0.0000000000000000000, -1.000000000000000000, -0.0000000000000000000 ) ) ;
#319 = DIRECTION ( 'NONE',  ( 0.0000000000000000000, -0.0000000000000000000, -1.000000000000000000 ) ) ;
#320 = ADVANCED_FACE ( 'NONE', ( #11 ), #81, .F. ) ;
#321 = ORIENTED_EDGE ( 'NONE', *, *, #197, .F. ) ;
#322 =( NAMED_UNIT ( * ) SI_UNIT ( $, .STERADIAN. ) SOLID_ANGLE_UNIT ( ) );
#323 = PLANE ( 'NONE',  #286 ) ;
#324 = VECTOR ( 'NONE', #66, 1000.000000000000000 ) ;
#325 = CARTESIAN_POINT ( 'NONE',  ( 0.0000000000000000000, 0.0000000000000000000, -8.250000000000007100 ) ) ;
#326 = VERTEX_POINT ( 'NONE', #233 ) ;
#327 = LINE ( 'NONE', #152, #200 ) ;
#328 = ORIENTED_EDGE ( 'NONE', *, *, #262, .T. ) ;
#329 = FACE_OUTER_BOUND ( 'NONE', #16, .T. ) ;
#330 =( GEOMETRIC_REPRESENTATION_CONTEXT ( 3 ) GLOBAL_UNCERTAINTY_ASSIGNED_CONTEXT ( ( #332 ) ) GLOBAL_UNIT_ASSIGNED_CONTEXT ( ( #289, #129, #322 ) ) REPRESENTATION_CONTEXT ( 'NONE', 'WORKASPACE' ) );
#331 = FILL_AREA_STYLE_COLOUR ( '', #121 ) ;
#332 = UNCERTAINTY_MEASURE_WITH_UNIT (LENGTH_MEASURE( 1.000000000000000100E-005 ), #289, 'distance_accuracy_value', 'NONE');
#333 = VERTEX_POINT ( 'NONE', #217 ) ;
#334 = FACE_BOUND ( 'NONE', #42, .T. ) ;
#335 = DIRECTION ( 'NONE',  ( 0.0000000000000000000, 1.000000000000000000, 0.0000000000000000000 ) ) ;
#336 = DIRECTION ( 'NONE',  ( 0.0000000000000000000, 0.0000000000000000000, -1.000000000000000000 ) ) ;
#337 = ORIENTED_EDGE ( 'NONE', *, *, #144, .F. ) ;
#338 = EDGE_CURVE ( 'NONE', #173, #146, #294, .T. ) ;
#339 = ORIENTED_EDGE ( 'NONE', *, *, #201, .F. ) ;
#340 = CARTESIAN_POINT ( 'NONE',  ( 0.0000000000000000000, 1.590000000000000100, -8.250000000000007100 ) ) ;
#341 = VECTOR ( 'NONE', #106, 1000.000000000000000 ) ;
#342 = CARTESIAN_POINT ( 'NONE',  ( 10.50000000000000000, 0.0000000000000000000, -5.625000000000002700 ) ) ;
#343 = DIRECTION ( 'NONE',  ( 0.0000000000000000000, -1.000000000000000000, 0.0000000000000000000 ) ) ;
#344 = ORIENTED_EDGE ( 'NONE', *, *, #239, .F. ) ;
#345 = EDGE_CURVE ( 'NONE', #193, #30, #58, .T. ) ;
#346 = DIRECTION ( 'NONE',  ( 0.0000000000000000000, 0.0000000000000000000, 1.000000000000000000 ) ) ;
#347 = LINE ( 'NONE', #180, #272 ) ;
#348 = ORIENTED_EDGE ( 'NONE', *, *, #140, .T. ) ;
#349 = DIRECTION ( 'NONE',  ( 0.0000000000000000000, 0.0000000000000000000, -1.000000000000000000 ) ) ;
#350 = CIRCLE ( 'NONE', #175, 1.500000000000004000 ) ;
ENDSEC;
END-ISO-10303-21;
